Kamis, 05 Agustus 2010

Chord SID - Bangkit Dan Percaya

Fig1 (play with keyboard)
e|--8-7---------7-8-7----7--------------8------------8-----12--|
B|------10---10-------10---10-8-8--8-10---10-8--8-10----13-----|
G|---------9---------------------------------------------------|
D|-------------------------------------------------------------|
A|-------------------------------------------------------------|
E|-------------------------------------------------------------|


A5 F5 G5 A5
A5 F5 G5 A5
Kubertanya pada bintang ketika ia padam, arti hidup yang kita jalani
A5 F5
Kebencian yang takkan pernah mengering
G5 A5
Hilang semua, Tuhan kau ada dimana

F5 G5 A5 F5 G5 C5
Amarah yang tak tertahan, kematian langitpun hitam
F5 G5 A5
Atas nama cinta dan harapan yang tenggelam
F5 G5
Ku kan bangkit, dan percaya .

A5 F5 G5
Oooh, segenggam harapan
C5 B5 A5 F5 G5
Takkan pernah menyerah, terus kubertahan
C5 B5 A5 F5 G5
Sampai ini berakhir, dengarkan hatiku
C5 B5 A5 F5 G5
Kita semua berbeda, tak pernah ku menginjakmu.

Fig1
A5 F5 G5 A5
F5 G5 A5

A5 F5 G5 A5 F5 G5 A5
Kulihat jelas kepedihan di matamu, jalan gelap lalui bersama
A5 F5
Dan sahabat ia pergi meninggalkan ku
G5 A5
Kan kukenang sampai nafasku berakhir

F5 G5 A5 F5 G5 C5
Gelapnya dosa dunia, matahari akan bersinar
F5 G5 A5
Atas nama cinta dan harapan yang tenggelam
F5 G5
Ku kan bangkit, dan percaya .

A5 F5 G5
Oooh, segenggam harapan
C5 B5 A5 F5 G5
Takkan pernah menyerah, terus kubertahan
C5 B5 A5 F5 G5
Sampai ini berakhir, dengarkan hatiku
C5 B5 A5 F5 G5
Kita semua berbeda, tak pernah ku menginjakmu.

A5 F5 G5 A5 C5 B5
A5 F5 G5 A5 C5

F5 G5 A5 G5 F5 G5 C5 B5
Amarah yang tak tertahan, kematian langitpun hitam
F5 G5 A5 G5
Atas nama cinta dan harapan yang tenggelam
F5 G5
Ku kan bangkit, dan percaya .

A5 F5 G5
Oooh, segenggam harapan
C5 B5 A5 F5 G5
Takkan pernah menyerah, terus kubertahan
C5 B5 A5 F5 G5
Sampai ini berakhir, dengarkan hatiku
C5 B5 A5 F5 G5
Kita semua berbeda, tak pernah ku menginjakmu.
F5 G5
Hilangkan kebencian.
F5 G5 G5 A5
Tak pernah ke menginjakmu.

Chord SID - Bad Bad Bad

Intro:
(C5)
e|-------------------------------------|
B|-------------------------------------|
G|-------------------------------------|
D|------2---0---2-3-------2---0---0h2--|
A|--3-3---3---3-------3-3---3---3------| 2x
E|-------------------------------------|
(G5)
e|-------------------------------------|
B|-------------------------------------|
G|-------------------------------------|
D|------2---0---2-3-------2---0---0h2--|
A|-------------------------------------| 2x
E|--3-3---3---3-------3-3---3---3------|

Intro 3x
C5
Think about you make me feel right
C5
To stand above all this beauty
G5
To sing about the way I run away, from
G5
The colour of desire in my head

#1
C5
Don't you know we can make it
C5
You and me we could grow old
G5
Something there's so significant, admit it
G5
You'll never ever gonna bring me down

Intro
C5
It's not a secret that I should keep
C5
It's not a shame so I won't hide it
G5
And all this pain I got from you is true, girl
G5
My deepest thought is crying out loud

kembali ke #1

C5
Bad bad bad, the time is up again
E5
Sad sad sad, my heart is burning red
F5
You're miles away, I wonder why
G5
All those 10 days, That's all I have inside

#2
C5
Bad bad bad, I hurt you once so bad
E5
Sad sad sad, if I just could make it right
F5
Be stronger now 'cos you'll be back
G5 D5
Close my eyes and It's worth a thousand kiss
E5 F5
I remember when we drunk
B5 C5 B5 C5 B5 C5 B5 C5 B5 C5 D5
It was just so much fun
E5 F5
But time goes by so fast



(C5)
e|----------------------------------|
B|----------------------------------|
G|----------------------------------|
D|------2---2-3---/5-3---2-3-2---2--|
A|--3-3---3--------------------3----| 2x
E|----------------------------------|

(G5)
e|----------------------------------|
B|----------------------------------|
G|----------------------------------|
D|----------------------------------|
A|------2---2-3---/5-3---2-3-3-2----| 2x
E|--3-3---3-------------------------|

(C5)
e|-------------------|
B|-------------------|
G|-------------------|
D|------2-----2---2--|
A|--3-3---3-3---3----| 4x
E|-------------------|

(G5)
e|-------------------|
B|-------------------|
G|-------------------|

D|------2-----2---2--|
A|-------------------| 4x
E|--3-3---3-3---3----|

C5
Think about you make me feel brave
C5
To fight alone all this beauty
G5
To sing about the way I run away, from
G5
This devil deep inside my soul

kembali ke #1 #2

Chord SID - All Angel Cry

             A5                   E5
Can you tell me why, the world is so ugly
D5 E5 A5
And there ain't no pretty pictures everywhere I go
A5 E5
Spend some of your time, and think of the answer
D5 E5 A5
Why must people get so scared most of their life

D5
Now tell me why
A5
Why the angels gonna cry
A5 E5
To see the way we live our lives, where this, the heart goes?
D5
And tell me why
A5
Why the angels gonna cry
E5 D5 E5 A5
I close my eyes and a better place will it come true

A5 E5
Walking down the street, in one bloody cold night
D5 E5 A5
Where everyone is blind, they show you how to feed your hate
A5 E5
Education now, war for tomorrow
D5 E5 A5
And I do believe we're living on a time bomb!

e|------5---------5----------------------------------------------------------|
B|--------5---------5-------9---------9---------7---------9---------5--------|
G|----6-----6---6-----6---9---9-----9---9-----7---7-----9---9-----6---6------|
D|------------------------------9---------9---------7---------9---------7----|
A|----------------------7---------7---------5---------7----------------------|
E|--5---------5-------------------------------------------------5---------5--|

e|--5~-4~-----------5~-4~-------------4~-5~--|
B|--------7~-5~-2~--------7-5-7~-5-3~--------|
G|-------------------------------------------|
D|-------------------------------------------|
A|-------------------------------------------|
E|-------------------------------------------|

Rabu, 30 Juni 2010

Chord SID - Lady Rose

e|-------------------------------------------------------------------|
B|-97/9-12-5/7-7/9-7/9-2/5----------2-0-2/5-42/4-7-0/2----------/5-|
G|----------5/7---------2/5-1-1/4--------------------0/2-1-1/4-------|
D|-------------------------------------------------------------------|
A|-------------------------------------------------------------------|
E|--------------------------------4---------------------------4----|

Fig2
e|------------------------12------------|
B|-0-2-0-2/5-5/7-7/9-9/12----129-97-5-|
G|--------------------------------------|
D|--------------------------------------|
A|--------------------------------------|
E|--------------------------------------|

Fig3
e|----------------------------|
B|-/9-/7-/5-/2-/9-/7-/5-/2-/9-|
G|----/7-/5-/2----/7-/5-/2----|
D|----------------------------|
A|----------------------------|
E|----------------------------|

Fig4
e|-----------------------------------------------------|
B|-7-7-7h9-9-9-9-7-7-5-7-5-4-------5-5---5-5/7-9-7-----|
G|---------------------------4-4h6-----6-----------9-9-|
D|-----------------------------------------------------|
A|-----------------------------------------------------|
E|-----------------------------------------------------|

e|-------------------------------12-12-12h14-12-----7---------|
B|-7-7-7h9-9-9-9-7-7---7-7/12-12-12-12-12----12-7h9---9p7-7---|
G|-------------------9--------------------------------------9-|
D|------------------------------------------------------------|
A|------------------------------------------------------------|
E|------------------------------------------------------------|

e|----------------------7-7h9-7-------5-5h7-5------------------|
B|-------9-9h10-9-----7-------------5---------7h9-9h10-9-7-7/9-|
G|-----9----------8-8-----------6-6----------------------------|
D|-9-9---------------------------------------------------------|
A|-------------------------------------------------------------|
E|-------------------------------------------------------------|

e|----------------------7-7h9-7-------5-5h7-5----------------|
B|-------9-9h10-9-----7-------------5---------7h9-9h10-9-7---|
G|-----9----------8-8-----------6-6------------------------9-|
D|-9-9-------------------------------------------------------|
A|-----------------------------------------------------------|
E|-----------------------------------------------------------|

Fig5
e|-------7--------------------0---0---0---|
B|---9-------7---7---5---5--3---3---3---3-|
G|-9---9---8---8---6---6------------------|
D|----------------------------------------|
A|----------------------------------------|
E|----------------------------------------|


Intro:
E B A
(Fig1)

E B A E
Can you stay a little while, can you drink this cheap bottle of wine
(Fig2)
E B A E
Got a love song, a broken line, yea .
E A Am E
Put the rose on your hair Full of grace my queen of mistery
E B A E
Can't you see, can't you believe And all they say it's true
B
Lady rose .

(Fig3)
E B A E
I can sing a thousand song, I can bring your kiss around town
E B A E
Kiss of angel, as sweet as heaven, yea .
E A Am E
Put the rose on your hair Full of grace my burnin-latin queen
E B A E
Can't you see, can't you believe And all they say it's true
B
Lady rose .

A E B E
When you fall to my arms, when you sleep for a thousand year
A E B
Never will brings you down, down down down
A E B E
You're the heart of the crown And the blood of all my lifetime
A B E
You are my lady rose

(Fig4)
E B A

E B
Let me say this, for one last time
A E
Of all the love and beauty I have seen
(Fig5)
E B A E
You're the one my only one, forever .

Chord SID - We Are The Outsiders

C5      D5      G5      C5
We are, We are, We are Outsiders
C5 D5 G5 C5
We are, We are, We are Outsiders

Intro :
E----------------------------------------------------------------------------|
B----------------------------------------------------------------------------|
G---------------------------------------55--55-------------------------------|
D---------------------------------------55--55--5555555555555555-------------|
A---3-3-3333-3-3-3333-3-3-3333-3-3-3333-33--33--5555555555555555-------------|
E-----------------------------------------------3333333333333333-------------|


C5 D5 G5 C5
We are, We are, We are Outsiders
C5 D5 G5 C5
We are, We are, We are Outsiders


C5 D5
Berpeluh dan tak pernah menyerah
G5 C5
tak pernah mengeluh dan tak pernah mengalah
C5 D5
Rintangan yang selalu menghadang
G5 C5
tak gentar kita hadapi walau sangat menyakit kan
C5 D5
Takkan ada rasa pernah menyesal
G5 C5
menghormati dan selalu di hormati
C5 D5
Perjuangan tangan slalu didepan
G5 C5
kita kibarkan bendera kita raih kemenangan


C5 D5 G5 C5
We are, We are, We are Outsiders
C5 D5 G5 C5
We are, We are, We are Outsiders


C5 C5-D5
Kita singsingkan lengan baju kepalkan tangan
G5 B5-C5
Kita hadapi kebodohan tau diri, bekal diri, dan bisa jaga diri
C5 C5-D5
hantam ketidak pastian diri, pengecut bukanlah jati diri sejati
G5 C5
tunjukkan pada dunia kita adalah manusia yg harus di puji


C5 D5
tenanglah hari kita kan menjelang
G5 C5
bulatkan tekad untuk saling menjaga
C5 D5
dan rangkulah yg tak tau arah
G5 C5
dan buka botol minuman dan mari kita bersulang


C5 D5 G5 C5
We are, We are, We are Outsiders
C5 D5 G5 C5
We are, We are, We are Outsiders


F5 C5 G5 C5
Terlihat penuh smangat di matamu kita slalu bertemu untuk 1 langkah maju
F5 C5 G5 G5
percaya kita harus percaya kita tidak rapuh dan tak pernah runtuh
G5 G5-G5-G5-G5-C5
tempuh jarak jauh kita takkan pernah akan runtuh


C5 D5 G5 C5
We are, We are, We are Outsiders
C5 D5 G5 C5
We are, We are, We are Outsiders
C5 D5 G5 C5
We are, We are, We are Outsiders
C5 D5 G5 C5
We are, We are, We are Outsiders
C5 D5 G5 C5
We are, We are, We are Outsiders
C5 D5 G5 C5
We are, We are, We are Outsiders

Sejarah superman is dead

Superman is dead yang biasanya dipanggil sid terbentuk pada tahun 1995 ( awal saya lahir ). Awal mula terbentuknya sid (superman is dead) dimotori oleh anggota band heavy metal thunder bernama ari astina sering dipanggil jerinx yang ingin membentuk band baru. Dan drummer band new wave punk diamond clash budi sartika yg biasa dipanggil bobby cool yg ingin mjd gitaris dan vokalis.
Jerinx dan bobby bertemu di kuta bali. Kedua orang itu kemudian sepakat untuk membentuk sebuah band. Pada saat itu bass masih diisi ma additional bassist bernama ajuzt. Band mereka pertama2 ngejam ngebawain lagu2 na greenday.
Hari berganti hari datanglah personil baru yang bernama eka arsata panggilan nya eka rock. Eka menjadi resmi sebagai personil sid. Dulu nama band na bukan superman is dead tetapi superman is silver gun. Kemudian karena nama superman is silver gun kurang cocok bergantilah menjadi superman is dead atau sid. Superman is dead mempunyai arti yaitu bahwa manusia yang sempurna hanyalah illusi belaka dan imaginasi manusia yang tidak akan pernah ada.
Good luck for superman is dead...
Bagi yang tau profil lengkap tentang anggota superman is dead mohon hubungi gue ya.