Rabu, 30 Juni 2010

Chord SID - Lady Rose

e|-------------------------------------------------------------------|
B|-97/9-12-5/7-7/9-7/9-2/5----------2-0-2/5-42/4-7-0/2----------/5-|
G|----------5/7---------2/5-1-1/4--------------------0/2-1-1/4-------|
D|-------------------------------------------------------------------|
A|-------------------------------------------------------------------|
E|--------------------------------4---------------------------4----|

Fig2
e|------------------------12------------|
B|-0-2-0-2/5-5/7-7/9-9/12----129-97-5-|
G|--------------------------------------|
D|--------------------------------------|
A|--------------------------------------|
E|--------------------------------------|

Fig3
e|----------------------------|
B|-/9-/7-/5-/2-/9-/7-/5-/2-/9-|
G|----/7-/5-/2----/7-/5-/2----|
D|----------------------------|
A|----------------------------|
E|----------------------------|

Fig4
e|-----------------------------------------------------|
B|-7-7-7h9-9-9-9-7-7-5-7-5-4-------5-5---5-5/7-9-7-----|
G|---------------------------4-4h6-----6-----------9-9-|
D|-----------------------------------------------------|
A|-----------------------------------------------------|
E|-----------------------------------------------------|

e|-------------------------------12-12-12h14-12-----7---------|
B|-7-7-7h9-9-9-9-7-7---7-7/12-12-12-12-12----12-7h9---9p7-7---|
G|-------------------9--------------------------------------9-|
D|------------------------------------------------------------|
A|------------------------------------------------------------|
E|------------------------------------------------------------|

e|----------------------7-7h9-7-------5-5h7-5------------------|
B|-------9-9h10-9-----7-------------5---------7h9-9h10-9-7-7/9-|
G|-----9----------8-8-----------6-6----------------------------|
D|-9-9---------------------------------------------------------|
A|-------------------------------------------------------------|
E|-------------------------------------------------------------|

e|----------------------7-7h9-7-------5-5h7-5----------------|
B|-------9-9h10-9-----7-------------5---------7h9-9h10-9-7---|
G|-----9----------8-8-----------6-6------------------------9-|
D|-9-9-------------------------------------------------------|
A|-----------------------------------------------------------|
E|-----------------------------------------------------------|

Fig5
e|-------7--------------------0---0---0---|
B|---9-------7---7---5---5--3---3---3---3-|
G|-9---9---8---8---6---6------------------|
D|----------------------------------------|
A|----------------------------------------|
E|----------------------------------------|


Intro:
E B A
(Fig1)

E B A E
Can you stay a little while, can you drink this cheap bottle of wine
(Fig2)
E B A E
Got a love song, a broken line, yea .
E A Am E
Put the rose on your hair Full of grace my queen of mistery
E B A E
Can't you see, can't you believe And all they say it's true
B
Lady rose .

(Fig3)
E B A E
I can sing a thousand song, I can bring your kiss around town
E B A E
Kiss of angel, as sweet as heaven, yea .
E A Am E
Put the rose on your hair Full of grace my burnin-latin queen
E B A E
Can't you see, can't you believe And all they say it's true
B
Lady rose .

A E B E
When you fall to my arms, when you sleep for a thousand year
A E B
Never will brings you down, down down down
A E B E
You're the heart of the crown And the blood of all my lifetime
A B E
You are my lady rose

(Fig4)
E B A

E B
Let me say this, for one last time
A E
Of all the love and beauty I have seen
(Fig5)
E B A E
You're the one my only one, forever .

Tidak ada komentar:

Posting Komentar